Badem - Sen Ağlama - Akor | ORJINAL TON

    • A
      A
      A

  • Chm         B              Gh         Chm  B
    Kara gözlerinden bir damla yaş düşünce,
    A E Gh
    Güzel yüzün yanakların ıslanır.
    Chm B Gh Chm B
    Kara gözlerinden bir damla yaş düsünce,
    A E Gh
    Hüzün keder yüreğime yaslanır.

    Fhm
    Sen Ağlama!
    Gh Chm
    Bir damla gozyasin yeter.
    Fhm Gh
    Sen üzülme gülüm...

    Chm B Gh Chm B
    Gece gökyüzünden bir damla yaş düşünce,
    A E Gh
    Bahar gelir tüm çiçekler ıslanır.
    Chm B Gh Chm B
    Kara gözlerinden bir damla yaş düşünce,
    A E Gh
    Hüzün keder yüreğime yaslanır...

    Fhm
    Sen Ağlama!
    Gh Chm B
    Bir damla gozyasin yeter...
    Fhm
    Sen üzülme gülüm,
    Gh Chm
    Gamzende güllerin biter...
    Fhm
    Yollarıma,
    Gh Chm
    Taş koysalar da döneceğim
    Fhm
    Gozlerinden,
    Gh Chm
    Yaşlarını sileceğim

    SOLO:
    e-------------------------------------------------------------------------------|
    B-------------------------------------------------------------------------------|
    G-------------------------------------------------------------------------------|
    D--------4-6-7-6-4--------------------------------------------------------------|
    A--4-6-7-----------7s9v------7-6-7s9v---7-6-6h7v-7-6h7p6------------------------|
    E--------------------------------------------------------9-7-7s9v---------------|

    Sweep
    e------------------------------------------4-----7-5-4h5p4----------------------|
    B---------------5-7-7b(9)-(9)r7-5-7b...---5----------------7-5-4---4-5---4-5s7v-|
    G-----------4-6--------------------------6-----------------------6-----6--------|
    D-------4-6---------------------------------------------------------------------|
    A---4-7-------------------------------------------------------------------------|
    E-7-----------------------------------------------------------------------------|


    e-------------------------------------------------------------------------------|
    B-5-4-5s7v-5-4h5p4--------------------------------------------------------------|
    G-------------------6-4-6-4-----------------------------------------------------|
    D----------------------------7-6-7-6-4------------------------------------------|
    A--------------------------------------7-6h7v-----------------------------------|
    E-------------------------------------------------------------------------------|

    Sweep
    e---------------------------------------------7----------4h5p4------------------|
    B-----------------5-7-7b(9)-(9)r7-5-7b...----5------------------7-5-4-----------|
    G------------4-6----------------------------6-------------------------6-4-4s6v--|
    D--------4-6--------------------------------------------------------------------|
    A---4-7-------------------------------------------------------------------------|
    E-7-----------------------------------------------------------------------------|

    Şarkıyı Repertuarınıza eklemek için Giriş yapmalısınız.

    Ekleyen

    OrjinalTon

    PAYLAŞ

    Lütfen şarkı akorlarında gördüğünüz hataları veya eklemek istediğiniz noktaları yorum yazarak bize bilidirin.

    E-posta hesabınız yayımlanmayacak. Gerekli alanlar * ile işaretlenmişlerdir

    Badem Akorları
    Sen Ağlama Akoru, Sen Ağlama Akor, Sen Ağlama Akorları Orjinal
    Orjinal ton, Kolay Ton