Dizi & Film - Neşeli Günler - Akor | ORJINAL TON

Dizi & Film

Neşeli Günler

    • A
      A
      A

  •     E  E  E  E  E  E  E  E  E     E  E  E  E  E  E  E  E  E
    E|-----------------------------|-----------------------------|
    B|--------0-----------1-----0--|--------0-----------1-----0--|
    G|-----0-----0--3--------0-----|--0--0-----0--3--------0-----|
    D|-----------------------------|-----------------------------|
    A|-----------------------------|-----------------------------|
    E|--3-----------L--3-----------|--3--------------3-----------|

    E E E E E E E E E E E E E E E E E E
    E|--------------------0--0-----|--------------------0--0-----|
    B|--0-----3-----2-----------3--|--0-----3-----2-----------3--|
    G|-----0-----0-----0-----------|-----0-----0-----0-----------|
    D|-----------------------------|-----------------------------|
    A|-----------------------------|-----------------------------|
    E|--3--------------------L-----|--3--------------------------|

    E E E E E E E E E E E E E E E E E E
    E|--------1-----0-----3-----1--|--------1-----0-----3-----1--|
    B|--3--------------------------|--3--------------------------|
    G|-----0-----0-----0-----0-----|-----0-----0-----0-----0-----|
    D|-----------------------------|-----------------------------|
    A|-----------------------------|-----------------------------|
    E|--3-----------------3--------|--3-----------------3--------|

    Q E E Q E E E E S S E E E S S S S Q
    E|--3----3--3--3----3--3-----|-------------------------------|
    B|--0----0--0--0----0--0-----|--0h--0---0--0--1--3-1-0-1-3---|
    G|--0----0--0--0----0--0-----|--------3----------------------|
    D|--0----0--0--0----0--0-----|-------------------0-------L---|
    A|--2----2--2--2----2--2-----|-------------------------------|
    E|--3----3--3--3----3--3-----|--3----------------------------|

    E E E E E S S S S S S E E S S E E E S S S S Q
    E|----0--3--1--0----0----------------------------------------|
    B|-3--------------3---3-1-0---0-|-0h--0---0--0--1--3-1-0-1-3-|
    G|--------------------------3---|-------3--------------------|
    D|------------------------------|----------------------------|
    A|-3--------------L-------------|----------------------------|
    E|------------------------------|-3-------------L----------L-|

    E E E E E S S S S S S E E E S S E E S S Q E
    E|----0--3--1--0----0-----------|----------------------------|
    B|-3--------------3---3-1-0---0-|-L--1--1-0-------1-0-0----0-|
    G|--------------------------3---|-----------3--3-------------|
    D|------------------------------|----------------------------|
    A|-3-----------L--0---------L---|----3----------------L------|
    E|------------------------------|---------------------3------|

    E E S S E E S S Q E Q E E Q Q E
    E|------------------------------|-------0--2--3----5s----5---|
    B|--L--1--1-0-------1-0-0-------|--3-------------------------|
    G|------------3--3--------------|----------------------------|
    D|------------------------------|----------------------------|
    A|-----3--------------L---------|------------------0---------|
    E|------------------------------|--3----------L--------------|

    S S S S E E E S S S S Q Q E E Q Q E
    E|-3-5p-3-2-0--0--3--2h-3p-2-0---|--------0--2--3----5s----5-|
    B|-----------------------------3-|--3------------------------|
    G|-0--------------L--------------|---------------------------|
    D|-------------------0---------L-|---------------------------|
    A|-------------------------------|-------------------0-------|
    E|-------------------------------|--3------------------------|

    S S S S E E E S S S S Q E E E E E E E E E
    E|-3h-5p-3p-2-0--0--3--2-3p-2p-0--|-0--1--0------------------|
    B|-------------------------------3|----------3--1--0-----0--1|
    G|-0-------------L----------------|-------------------3------|
    D|---------------------0---------L|--------------------------|
    A|--------------------------------|-------------3-----------L|
    E|--------------------------------|-3--------L---------------|

    Q E E S S S S Q E E E E E E E E E E
    E|---------------------------|-------------------------------|
    B|-0-------1--3-1-0-1-3------|----------1--0-----------------|
    G|------0------------------2-|-2--0--2--------2--0-----2--*--|
    D|---------------------------|----------------------4-----*--|
    A|---------------------------|-0-----------------------L-----|
    E|-3------------------L------|-------------------------------|
    Zamanlama Bilgileri
    ---------------
    Q-4'lük nota
    E-8'lik nota
    S-16'lik nota

    Tab Bilgileri
    ----------------
    L-herhangi bir işlem yapmayıin.(bir önceki notanin devami-ses olarak)
    g-grace note
    h-hammer on
    p-pull off

    PAYLAŞ

    Ekleyen

    OrjinalTon


    Lütfen şarkı akorlarında gördüğünüz hataları veya eklemek istediğiniz noktaları yorum yazarak bize bilidirin.

    Bir cevap yazın

    E-posta hesabınız yayımlanmayacak. Gerekli alanlar * ile işaretlenmişlerdir



    Diğer Dizi & Film Şarkı Akorları
  • Çağatay Ulusoy - Mutlu Sonsuz
  • Karlos & Yaren - Yanarım
  • Earned It
  • Dizi & Film Akorları
    Neşeli Günler Akoru, Neşeli Günler Akor, Neşeli Günler Akorları Orjinal
    Orjinal ton, Kolay Ton