Duman - Gönül - Akor | ORJINAL TON

    • A
      A
      A

  • Intro:Em

    Em Em Em Em
    G---------------------------------------------------------------------------
    D-2-4-5-7-9--10-7-9~---2-4-5-7-9--5~----2-4-5-7-9--10-7-9~---2-4/5--4~--(2)-
    A---------------------------------------------------------------------------
    E---------------------------------------------------------------------------

    Em
    Nedir bu çektiğim senden
    Em
    Gönül derdin hiç bitmiyor
    Am
    Yediğin darbelere bak
    G Em
    Bu da mı sana yetmiyor gönül

    Bm
    Her çiçekten bal alırsın
    C
    Her gördüğünle kalırsın
    D Em
    Sen kendini ne sanırsın
    D C
    Belki bir gün uslanırsın
    Em Am Em
    Gönül, gönül, gönünüüüüül
    Ara Geçiş: E-5--8-7-10-8-12-10-14-12-15-14-14-12-10-8-7-5

    Em
    Uslan artık deli gönül
    Am
    Bak gelip geçiyor ömür
    G B Em
    Uslan artık deli divane gönül

    ------------------Solo------------------
    Em
    e----------------------------------------------------------------------------------------
    B----------------------------------------------------------------------------------------
    G----------------------------------------------------------------------------------------
    D-2-4-5-7-9--10-7-9~----2-4-5-7^-7^-5~----2-4-5-7-9--10-7-9~---10-9--12^---7--9--5--4-2--
    A----------------------------------------------------------------------------------------
    E----------------------------------------------------------------------------------------
    Am Dm
    e-------12-15^---15-12--12-10--17^-15--15-14--14-12--12-10--14^--14-12--12-10--10-8-
    B----15-----------------------------------------------------------------------------
    G-14--------------------------------------------------------------------------------
    D-----------------------------------------------------------------------------------
    A-----------------------------------------------------------------------------------
    E-----------------------------------------------------------------------------------
    C Em
    e-12-10--10-8--8-7--10-8-7-7--
    B-----------------------------

    Em Am Dm G G Em Am Em
    e---------------------------------------------------------14----------------
    B-17^-15--------------------15^---------------------------------------------
    G--------17-16-14---------------17-16-14------------14^---------------------
    D----------------------------------------17---16-17----------16-17-19^---14-
    A------------------5/7~-5---------------------------------------------------
    E---------------------------------------------------------------------------


    Dünya sana kalır sanma
    Geleceği dünden sorma
    Her gün gördüğün rüyayı
    Aldanıp ta hayra yorma gönül

    Hepimiz bir misafiriz
    Zaman gelince göçeriz
    Ecel acı can alırken
    Her şeyimizden geçeriz gönül

    Şarkıyı Repertuarınıza eklemek için Giriş yapmalısınız.

    Ekleyen

    OrjinalTon

    PAYLAŞ

    Lütfen şarkı akorlarında gördüğünüz hataları veya eklemek istediğiniz noktaları yorum yazarak bize bilidirin.

    E-posta hesabınız yayımlanmayacak. Gerekli alanlar * ile işaretlenmişlerdir

    Duman Akorları
    Gönül Akoru, Gönül Akor, Gönül Akorları Orjinal
    Orjinal ton, Kolay Ton