Duman - Melankoli - Akor | ORJINAL TON

Duman

Melankoli

    • A
      A
      A

  • Intro:
    E -----------------------------------------------
    B -----------------------------------------------
    G -----10------9-------7--------5-----------4----
    D --10---10--9---9---7---7---5----5-------5---5--
    A -0-------0-------0------0-------------0--------
    E -----------------------------------------------

    Özledim seni harbiden
    E ----------------------------------
    B ----------------------------------
    G -----10------9-------7--------5---
    D --10---10--9---9---7---7---5----5-
    A -0-------0-------0------0---------
    E ----------------------------------

    Aklıma da düşüverir aniden
    E ----------------------------------
    B ----------------------------------
    G -----10------9-------7--------5---
    D --10---10--9---9---7---7---5----5-
    A -0-------0-------0------0---------
    E ----------------------------------

    İçince Açılınca
    E -----------------------------------
    B -----------------------------------
    G ------4----------------------------
    D ----5---5--------------------------
    A --0--------------------------------
    E -----------------------------------

    Am
    Söyledin seni duymadım
    G
    Leylaya mecnunu oynadım
    Em E
    Sevince sevilince

    Am
    Anladım ki yanılmışım
    F
    Öylesine yılana sarılmışım
    Em E
    Sen ölünce gömülünce

    Am : --0-- G : --0--
    --1-- --3--
    --2-- --4--
    --3-- --5--
    --0-- --0--
    --0-- --0-

    PAYLAŞ

    Ekleyen

    OrjinalTon


    Lütfen şarkı akorlarında gördüğünüz hataları veya eklemek istediğiniz noktaları yorum yazarak bize bilidirin.

    Bir cevap yazın

    E-posta hesabınız yayımlanmayacak. Gerekli alanlar * ile işaretlenmişlerdir

    Duman Akorları
    Melankoli Akoru, Melankoli Akor, Melankoli Akorları Orjinal
    Orjinal ton, Kolay Ton Duman Akorlarını sitemizde bulabilirsiniz.
    Melankoli Akoru için tıklayın, Melankoli Akoru kolay ton, Melankoli Akorları Orjinal
    Orjinal ton,