Manga - Cevapsız Sorular (Tab) - Akor | ORJINAL TON

Manga

Cevapsız Sorular (Tab)

    • A
      A
      A

  • Intro:
    e------0---------------------0---------------
    B-4-------4---4-----4---4-------4---4-----4--
    G---6-------6------6-6----6-------6------6-6-
    D-----6---------------------6----------------
    A---------------0---------------------0------
    E--------------------------------------------

    e-------0-----------------0---------------0-----------------
    B-4--------4---4------4----4---4-------4----4---4------4----
    G----6-------6------6---6----6-------6---6----6------6---6--
    D------6----------------------------------------------------
    A---------------0------------------0-------------0----------
    E-----------------------------------------------------------

    Sözlerle Birlikte
    e---------------------------- -----------------------------------------
    B--------0-------------0----- -------0--------0---------0--------4-5---
    G-----6----6-------6----6-6--2x -----6--6-----6--6-6----6--6-----6--6-6--
    D---6---6---6----6---6---6--- ----6-6--6---6-6--6----6-6--6---6-6------
    A-4------------4------------- ---0-------0----------0-------0----------
    E---------------------------- -----------------------------------------
    C#m
    Birden Ay ışığını kesti, bir de Sen çok değiştin
    A
    Yaşananlar hiç yaşanmamış gibi

    Söylenenler hiç söylenmemiş gibi
    C#m
    Birde Sen karşıma geçtin Başka biri var, biri var dedin
    A
    İnanamadım bittiğine,inanamadım gittiğine..

    F#m A C#m
    Ne sen baktın ardına ne ben
    B5 A
    Hep ayrı yollarda yürüdük

    A B F#m
    Sustu bu gece, karardı yine ay
    F#m G# A
    Kaldı geriye cevapsız sorular
    A B F#m
    Uyandığında onu ilk kim görecek
    F#m G# C#m
    Bıraktığım düşü kim büyütecek?

    C#m
    Her sabah kaybolup giden
    A
    Bir rüya gibi oldun artık gecelerimi bekleyen;

    Gündüzlerimi zehir eden..

    F#m A C#m
    Ne sen baktın ardına ne ben
    B5 A
    Hep ayrı yollarda yürüdük

    A B F#m
    Sustu bu gece, karardı yine ay
    F#m G# A
    Kaldı geriye cevapsız sorular
    A B F#m
    Uyandığında onu ilk kim görecek
    F#m G# C#m
    Bıraktığım düşü kim büyütecek?

    PAYLAŞ

    Ekleyen

    OrjinalTon


    Lütfen şarkı akorlarında gördüğünüz hataları veya eklemek istediğiniz noktaları yorum yazarak bize bilidirin.

    “Cevapsız Sorular (Tab)” için 1 Yorum var

    Bir cevap yazın

    E-posta hesabınız yayımlanmayacak. Gerekli alanlar * ile işaretlenmişlerdir

    Manga Akorları
    Cevapsız Sorular (Tab) Akoru, Cevapsız Sorular (Tab) Akor, Cevapsız Sorular (Tab) Akorları Orjinal
    Orjinal ton, Kolay Ton