- Pembe Mezarlık - Akor | ORJINAL TON

Model

Pembe Mezarlık

    • A
      A
      A

  • Intro:G#m C#m7 E D#m7 C#m7 D#m7 G#m D#m7

    G#m C#m7 D#
    Tenin sinmiş yastığıma
    E D#m7 C#m7 D#m7 G#m
    Dün gece terk etmeden önce
    G#m C#m7 D#
    İçimde bıraktığın acıyla
    E D#m7 C#m7 D#m7 G#m
    Kokunla uyudum bu gece

    G#m
    Pembe bir mezarlık gördüm rüyamda
    C#m7
    Aşık cesetler şekerden tabutta
    E D#m7 C#m7 D#m7
    Gezinirken ciğerim doldu bir anda
    G#m D#m7
    Çürük çilek kokusuyla

    G#m
    Kalbi atan ölü bedenlerdi hepsi
    C#m7
    Hepsinin başında birer ölüm perisi
    E D#m7 C#m7 D#m7
    Soluk birer pembe gül kokluyorlar
    G#m
    Karanlıkta

    G#m
    Affet bu gece ölmek istedim
    C#m7
    Pembe bir mezarlık olmak istedim
    E D#m7
    Karanlığı elimle bölmek istedim
    C#m7 D#m7 G#m
    Seni çok özledim

    G#m
    Çok istedim bu gece kendimi asmak
    C#m7
    Ellerimle kendi mezarımı kazmak
    E D#m7
    Elimden gelen oturup evimde
    C#m7 D#m7 G#m
    Sana şarkılar yazmak

    G#m C#m7 E D#m7 C#m7 D#m7 G#m D#m7
    e----11-------------------------------------12-------------------------------
    B-/9----9-12-119------------------------/9---9-12-119-5h7-5h7p5-4-5-7-9-11~
    G-----------------8-9-8h9p8-6-------6~---------------------------------------
    D-----------------------------9-8-9------------------------------------------
    A----------------------------------------------------------------------------
    E----------------------------------------------------------------------------

    e---------11-9---------------------------------------------------------------
    B-12-11-12-----12-11-9-------------------------------------------------------
    G----------------------11-9-8-9-9/11-9-8~--/8-6-------4-6--------------------
    E-----------------------------------------------9-8-9------------------------
    D----------------------------------------------------------------------------
    A----------------------------------------------------------------------------
    E----------------------------------------------------------------------------

    e----11-------------------------------------12-------------------------------
    B-/9----9-12-119------------------------/9---9-12-119-5h7-5h7p5-4-5-7-9-11~
    G-----------------8-9-8h9p8-6-------6~---------------------------------------
    D-----------------------------9-8-9------------------------------------------
    A----------------------------------------------------------------------------
    E----------------------------------------------------------------------------

    e---------11-9-----------------------------
    B-12-11-12-----12-11-9-----------------9~--
    G----------------------11-9-8-9-9/11-9-----
    D------------------------------------------
    A------------------------------------------
    E------------------------------------------

    G#m
    Seni çok özledim
    C#m7
    Seni çok özledim
    E D#m7
    Seni çok özledim
    C#m7 D#m7 G#m
    Seni çok özledim

    PAYLAŞ

    Ekleyen

    OrjinalTon


    Lütfen şarkı akorlarında gördüğünüz hataları veya eklemek istediğiniz noktaları yorum yazarak bize bilidirin.

    Bir cevap yazın

    E-posta hesabınız yayımlanmayacak. Gerekli alanlar * ile işaretlenmişlerdir



    Model Akorları
    Pembe Mezarlık Akoru, Pembe Mezarlık Akor, Pembe Mezarlık Akorları Orjinal
    Orjinal ton, Kolay Ton