Seksendört - Ölürüm Hasretinle (Tab) - Akor | ORJINAL TON

Seksendört

Ölürüm Hasretinle (Tab)

    • A
      A
      A

  • Intro (gitar I)
    --------------------------------------------------------------------
    --------------------------------------------------------------------
    --7---5-4--9--4-7-5-------7--4-5-9--9-7---4-------------------------
    ---------------------5-7----------------7---------------------------
    --------------------------------------------------------------------
    --------------------------------------------------------------------

    (gitar II)(arpej şeklinde)
    ---------------------I-----------------------------------------------
    -5-----3-----5----3--I--5---9-----1-3-5------------------------------
    -5-----3-----5----3--I--5---10----1-3-5------------------------------
    -7-----5-----7----5--I--7---10----3-5-7------------------------------
    -7-----5-----7----5--I--7---9-----3-5-7------------------------------
    -5-----3-----5----3--I--5---9-----1-3-5------------------------------

    (gitar I)
    ----------------------I----------------------------------------------
    ----------------------I----------------------------------------------
    ----------------------I----------------------------------------------
    -----3-3--5--3--5--2--I------3-3---5--3--5--7------------------------
    -0-1-3-3--5--3--5--2--I--0-1-3-3---5--3--5--7------------------------
    -0-1-1-1--3--1--3--0--I--0-1-1-1---3--1--3--5------------------------

    sözler (gI)
    --------------------------------------------------------------------
    --------------------------------------------------------------------
    --------------------------------------------------------------------
    --7-------------5-----------3----------2----------------------------
    --7-------------5-----------3----------2----------------------------
    --5-------------3-----------1----------0----------------------------
    gördün mü bak bizden ötesi de varmış
    yaşananların hepsi demek birer yalanmış

    (gII)(arpej şeklinde)
    --------------------------------------------------------------------
    --5------------3----------1-----------0-----------------------------
    --5------------3----------1-----------0-----------------------------
    --7------------5----------3-----------2-----------------------------
    --7------------5----------3-----------2-----------------------------
    --5------------3----------1-----------0-----------------------------

    (gI)
    --------------------------------------------------------------------
    --------------------------------------------------------------------
    --------------------------------------------------------------------
    ------9-------9---9-9------7-----7---7------5-----5---5-5-----------
    ------9-------9---9-9------7-----7---7------5-----5---5-5-----------
    --7-7-7-7--7--7-7-7-7--5-5-5-5-5-5-5-5--3-3-3-3-3-3-3-3-3-----------
    kaderimde bu da mı var dı sevdiğimi başkalarıylaaaa
    göreceksem eğer kör olsun bu gözler ahh....

    --------------------------------------------------------------------
    --------------------------------------------------------------------
    --------------------------------------------------------------------
    -5-------------3---------2------------------------------------------
    -5-------------3---------2------------------------------------------
    -3-------------1---------0------------------------------------------
    ..göremeyeyim bir daha...

    nakarat 3X
    ----------------------------------------I---------------------------
    ----------------------------------------I---------------------------
    --5-5----------4-4----------------------I---------------------------
    --5-5----------4-4------7-7---------5-5-I-5--7---4-4-------7-7------
    --3-3----------2-2------7-7---------5-5-I-5--7---4-4-------7-7------
    ------------------------5-5---------3-3-I-3--5---2-2-------5-5------
    yaar ellerin nerde ya beni de götür..... bilirsin sensiz ben hiç....

    --------------------------------------------------------------------
    --------------------------------------------------------------------
    --------------------------------------------------------------------
    ------5-------3-------2---------------------------------------------
    ---5--------3-------2-----------------------------------------------
    -3--------1-------0-------------------------------------------------
    ..ölürüm hasretindeeen..

    aradaki bölüm
    --------------------------------------------------------------------
    --------------------------------------------------------------------
    --------------------------------------------------------------------
    -2-3-5--7----7------10-9-10-9---7-7----7-7----10-9-10-9-------------
    -2-3-5--7----7------10-9-10-9---7-7----7-7----10-9-10-9-------------
    -0-1-3--5-x-x5-x-x-x8--7-8--7---5-5-x-x5-5x-x-8--7-8--7-------------

    --------------------------------------------------------------------
    --------------------------------------------------------------------
    --------------------------------------------------------------------
    -5--5--5--3-5-7-3---6-5-3-2-----------------------------------------
    -5--5--5--3-5-7-3---6-5-3-2-----------------------------------------
    -3--3--3--1-3-5-1---4-3-1-0-----------------------------------------

    Am G F Em
    Gördün mü bak bizden ötesi de varmış,
    Am G F Em
    Yaşananların hepsi meğer birer yalanmış,

    A5 G5 F5 G5
    Kaderimde bu da mı vardı sevdiğimi başkalarıyla,
    E5 F5 G F Em
    Göreceksem eğer kör olsun bu gözler görmeyeyim bir daha

    E5 F5 G5 Am G
    Yaaaaaaaaaaaar, ellerin nerde?
    F G
    Ya beni de götür ya da gitme,
    Em F
    Bilirsin sensiz ben hiç yaşayamam ki
    G F Em
    Ölürüm hasretinle!

    Am G F Em
    Geceler uykusuz geçer oldu ömrümde,
    Am G F Em
    Anılar birer birer batırır hançeri kalbime

    A5 G5 F5 G5
    Kaderimde bu da mı vardı? sevdiğimi başkalarıyla,
    E5 F5 G F E
    Göreceksem eğer kör olsun bu gözler görmeyeyim bir daha

    PAYLAŞ

    Ekleyen

    OrjinalTon


    Lütfen şarkı akorlarında gördüğünüz hataları veya eklemek istediğiniz noktaları yorum yazarak bize bilidirin.

    Bir cevap yazın

    E-posta hesabınız yayımlanmayacak. Gerekli alanlar * ile işaretlenmişlerdir

    Seksendört Akorları
    Ölürüm Hasretinle (Tab) Akoru, Ölürüm Hasretinle (Tab) Akor, Ölürüm Hasretinle (Tab) Akorları Orjinal
    Orjinal ton, Kolay Ton